  0
SECTION
  2
HEADER
  9
$ACADVER
  1
AC1009
  9
$INSBASE
 10
79.06359767237884
 20
147.1889057951854
 30
0.0
  9
$EXTMIN
 10
79.06359767237884
 20
147.1889057951854
 30
0.0
  9
$EXTMAX
 10
231.1686226399967
 20
259.2939307627952
 30
0.0
  9
$LIMMIN
 10
0.0
 20
0.0
  9
$LIMMAX
 10
420.0
 20
297.0
  9
$ORTHOMODE
 70
     1
  9
$REGENMODE
 70
     0
  9
$FILLMODE
 70
     1
  9
$QTEXTMODE
 70
     0
  9
$MIRRTEXT
 70
     0
  9
$DRAGMODE
 70
     2
  9
$LTSCALE
 40
1.0
  9
$OSMODE
 70
     0
  9
$ATTMODE
 70
     1
  9
$TEXTSIZE
 40
2.484999999999999
  9
$TRACEWID
 40
0.1
  9
$TEXTSTYLE
  7
STANDARD
  9
$CLAYER
  8
4AN
  9
$CELTYPE
  6
BYLAYER
  9
$CECOLOR
 62
   256
  9
$DIMSCALE
 40
1.0
  9
$DIMASZ
 40
2.5
  9
$DIMEXO
 40
1.0
  9
$DIMDLI
 40
8.0
  9
$DIMRND
 40
0.0
  9
$DIMDLE
 40
0.0
  9
$DIMEXE
 40
2.0
  9
$DIMTP
 40
0.1
  9
$DIMTM
 40
0.1
  9
$DIMTXT
 40
3.5
  9
$DIMCEN
 40
2.0
  9
$DIMTSZ
 40
0.0
  9
$DIMTOL
 70
     0
  9
$DIMLIM
 70
     0
  9
$DIMTIH
 70
     0
  9
$DIMTOH
 70
     0
  9
$DIMSE1
 70
     0
  9
$DIMSE2
 70
     0
  9
$DIMTAD
 70
     1
  9
$DIMZIN
 70
     8
  9
$DIMBLK
  1

  9
$DIMASO
 70
     1
  9
$DIMSHO
 70
     1
  9
$DIMPOST
  1

  9
$DIMAPOST
  1

  9
$DIMALT
 70
     0
  9
$DIMALTD
 70
     2
  9
$DIMALTF
 40
25.39999999999999
  9
$DIMLFAC
 40
1.0
  9
$DIMTOFL
 70
     1
  9
$DIMTVP
 40
0.0
  9
$DIMTIX
 70
     0
  9
$DIMSOXD
 70
     0
  9
$DIMSAH
 70
     0
  9
$DIMBLK1
  1

  9
$DIMBLK2
  1

  9
$DIMSTYLE
  2
*UNNAMED
  9
$DIMCLRD
 70
   256
  9
$DIMCLRE
 70
   256
  9
$DIMCLRT
 70
     2
  9
$DIMTFAC
 40
0.71
  9
$DIMGAP
 40
1.5
  9
$LUNITS
 70
     2
  9
$LUPREC
 70
     3
  9
$SKETCHINC
 40
0.1
  9
$FILLETRAD
 40
1.0
  9
$AUNITS
 70
     0
  9
$AUPREC
 70
     1
  9
$MENU
  1
genius11
  9
$ELEVATION
 40
0.0
  9
$PELEVATION
 40
0.0
  9
$THICKNESS
 40
0.0
  9
$LIMCHECK
 70
     0
  9
$BLIPMODE
 70
     0
  9
$CHAMFERA
 40
2.5
  9
$CHAMFERB
 40
2.5
  9
$SKPOLY
 70
     1
  9
$TDCREATE
 40
2449317.453774768
  9
$TDUPDATE
 40
2449394.636181481
  9
$TDINDWG
 40
0.0034608796
  9
$TDUSRTIMER
 40
0.0034608796
  9
$USRTIMER
 70
     1
  9
$ANGBASE
 50
0.0
  9
$ANGDIR
 70
     0
  9
$PDMODE
 70
     3
  9
$PDSIZE
 40
0.0
  9
$PLINEWID
 40
0.0
  9
$COORDS
 70
     2
  9
$SPLFRAME
 70
     0
  9
$SPLINETYPE
 70
     6
  9
$SPLINESEGS
 70
     8
  9
$ATTDIA
 70
     1
  9
$ATTREQ
 70
     1
  9
$HANDLING
 70
     0
  9
$HANDSEED
  5
11636
  9
$SURFTAB1
 70
     6
  9
$SURFTAB2
 70
     6
  9
$SURFTYPE
 70
     6
  9
$SURFU
 70
     6
  9
$SURFV
 70
     6
  9
$UCSNAME
  2

  9
$UCSORG
 10
0.0
 20
0.0
 30
0.0
  9
$UCSXDIR
 10
1.0
 20
0.0
 30
0.0
  9
$UCSYDIR
 10
0.0
 20
1.0
 30
0.0
  9
$PUCSNAME
  2

  9
$PUCSORG
 10
0.0
 20
0.0
 30
0.0
  9
$PUCSXDIR
 10
1.0
 20
0.0
 30
0.0
  9
$PUCSYDIR
 10
0.0
 20
1.0
 30
0.0
  9
$USERI1
 70
     0
  9
$USERI2
 70
     3
  9
$USERI3
 70
    15
  9
$USERI4
 70
     0
  9
$USERI5
 70
     0
  9
$USERR1
 40
1.0
  9
$USERR2
 40
1.0
  9
$USERR3
 40
0.0
  9
$USERR4
 40
1.0
  9
$USERR5
 40
0.0
  9
$WORLDVIEW
 70
     5
  9
$SHADEDGE
 70
     3
  9
$SHADEDIF
 70
    70
  9
$TILEMODE
 70
     1
  9
$MAXACTVP
 70
     4
  9
$PINSBASE
 10
0.0
 20
0.0
 30
0.0
  9
$PLIMCHECK
 70
     0
  9
$PEXTMIN
 10
1.000000000000000E+20
 20
1.000000000000000E+20
 30
1.000000000000000E+20
  9
$PEXTMAX
 10
-1.000000000000000E+20
 20
-1.000000000000000E+20
 30
-1.000000000000000E+20
  9
$PLIMMIN
 10
0.0
 20
0.0
  9
$PLIMMAX
 10
12.0
 20
12.0
  9
$UNITMODE
 70
     0
  9
$VISRETAIN
 70
     0
  9
$PLINEGEN
 70
     0
  9
$PSLTSCALE
 70
     0
  9
$TREEDEPTH
 70
  3020
  9
$DWGCODEPAGE
  3
undefined
  0
ENDSEC
  0
SECTION
  2
TABLES
  0
TABLE
  2
VPORT
 70
     2
  0
VPORT
  2
*ACTIVE
 70
     0
 10
0.0
 20
0.0
 11
1.0
 21
1.0
 12
156.456584788572
 22
207.8571372210149
 13
0.0
 23
0.0
 14
1.0
 24
1.0
 15
10.0
 25
10.0
 16
0.0
 26
0.0
 36
1.0
 17
0.0
 27
0.0
 37
0.0
 40
121.3364628516588
 41
1.275675675675675
 42
50.0
 43
0.0
 44
0.0
 50
0.0
 51
0.0
 71
     0
 72
   100
 73
     1
 74
     0
 75
     0
 76
     0
 77
     0
 78
     0
  0
ENDTAB
  0
TABLE
  2
LTYPE
 70
     1
  0
LTYPE
  2
CONTINUOUS
 70
    64
  3
Solid line
 72
    65
 73
     0
 40
0.0
  0
ENDTAB
  0
TABLE
  2
LAYER
 70
     4
  0
LAYER
  2
0
 70
    64
 62
     7
  6
CONTINUOUS
  0
LAYER
  2
ITEM_50
 70
    64
 62
     7
  6
CONTINUOUS
  0
LAYER
  2
ITEM_HILFE
 70
    64
 62
     3
  6
CONTINUOUS
  0
LAYER
  2
4AN
 70
     0
 62
     3
  6
CONTINUOUS
  0
ENDTAB
  0
TABLE
  2
STYLE
 70
     1
  0
STYLE
  2
STANDARD
 70
     0
 40
0.0
 41
1.0
 50
0.0
 71
     0
 42
2.484999999999999
  3
GENISO
  4

  0
ENDTAB
  0
TABLE
  2
VIEW
 70
     0
  0
ENDTAB
  0
TABLE
  2
UCS
 70
     0
  0
ENDTAB
  0
TABLE
  2
APPID
 70
     1
  0
APPID
  2
ACAD
 70
    64
  0
ENDTAB
  0
TABLE
  2
DIMSTYLE
 70
     0
  0
ENDTAB
  0
ENDSEC
  0
SECTION
  2
BLOCKS
  0
ENDSEC
  0
SECTION
  2
ENTITIES
  0
LINE
  8
ITEM_50
 10
230.1686226399966
 20
169.2957852144689
 30
0.0
 11
231.1686226399966
 21
169.2957852144689
 31
0.0
  0
LINE
  8
ITEM_50
 10
230.1686226399966
 20
177.2957852144689
 30
0.0
 11
231.1686226399966
 21
177.2957852144689
 31
0.0
  0
LINE
  8
ITEM_50
 10
230.1686226399966
 20
209.2957852144689
 30
0.0
 11
231.1686226399967
 21
209.2957852144689
 31
0.0
  0
LINE
  8
ITEM_50
 10
230.1686226399966
 20
217.295785214469
 30
0.0
 11
231.1686226399966
 21
217.295785214469
 31
0.0
  0
LINE
  8
ITEM_50
 10
230.1686226399966
 20
153.297639666123
 30
0.0
 11
231.1686226399966
 21
153.297639666123
 31
0.0
  0
LINE
  8
ITEM_50
 10
230.1686226399967
 20
233.2939307627952
 30
0.0
 11
231.1686226399967
 21
233.2939307627952
 31
0.0
  0
LINE
  8
ITEM_50
 10
231.1686226399966
 20
153.297639666123
 30
0.0
 11
231.1686226399966
 21
233.2939307627952
 31
0.0
  0
LINE
  8
ITEM_50
 10
230.1686226399966
 20
153.297639666123
 30
0.0
 11
230.1686226399967
 21
233.2939307627952
 31
0.0
  0
LINE
  8
ITEM_50
 10
189.1704770916623
 20
258.2939307627952
 30
0.0
 11
189.1704770916622
 21
259.2939307627952
 31
0.0
  0
LINE
  8
ITEM_50
 10
181.1704770916622
 20
258.2939307627952
 30
0.0
 11
181.1704770916622
 21
259.2939307627952
 31
0.0
  0
LINE
  8
ITEM_50
 10
149.1704770916654
 20
258.2939307627952
 30
0.0
 11
149.1704770916654
 21
259.2939307627952
 31
0.0
  0
LINE
  8
ITEM_50
 10
141.1704770916654
 20
258.2939307627952
 30
0.0
 11
141.1704770916654
 21
259.2939307627952
 31
0.0
  0
LINE
  8
ITEM_50
 10
109.1704770916686
 20
258.2939307627952
 30
0.0
 11
109.1704770916686
 21
259.2939307627952
 31
0.0
  0
LINE
  8
ITEM_50
 10
101.1704770916686
 20
258.2939307627952
 30
0.0
 11
101.1704770916686
 21
259.2939307627952
 31
0.0
  0
LINE
  8
ITEM_50
 10
205.1686226399967
 20
259.2939307627952
 30
0.0
 11
85.17233154332298
 21
259.2939307627952
 31
0.0
  0
LINE
  8
ITEM_50
 10
205.1686226399967
 20
258.2939307627952
 30
0.0
 11
205.1686226399967
 21
259.2939307627952
 31
0.0
  0
LINE
  8
ITEM_50
 10
85.17233154332298
 20
258.2939307627952
 30
0.0
 11
85.17233154332298
 21
259.2939307627952
 31
0.0
  0
LINE
  8
ITEM_50
 10
205.1686226399967
 20
258.2939307627952
 30
0.0
 11
85.17233154332298
 21
258.2939307627952
 31
0.0
  0
POLYLINE
  8
ITEM_50
 66
     1
 10
0.0
 20
0.0
 30
0.0
 70
     1
  0
VERTEX
  8
ITEM_50
 10
114.0863645030553
 20
228.745785214456
 30
0.0
 42
-0.6150572283701333
  0
VERTEX
  8
ITEM_50
 10
114.959143477547
 20
227.0188910850029
 30
0.0
 42
-0.073235913170983
  0
VERTEX
  8
ITEM_50
 10
109.8304770916685
 20
221.8457852144561
 30
0.0
 42
-0.1622776601683797
  0
VERTEX
  8
ITEM_50
 10
107.4304770916685
 20
221.045785214456
 30
0.0
  0
VERTEX
  8
ITEM_50
 10
102.9104770916686
 20
221.045785214456
 30
0.0
 42
-0.1622776601683802
  0
VERTEX
  8
ITEM_50
 10
100.5104770916687
 20
221.845785214456
 30
0.0
 42
-0.0732359131709836
  0
VERTEX
  8
ITEM_50
 10
95.38181070579034
 20
227.0188910850029
 30
0.0
 42
-0.6150572283701307
  0
VERTEX
  8
ITEM_50
 10
96.25458968028203
 20
228.745785214456
 30
0.0
  0
VERTEX
  8
ITEM_50
 10
100.1704770916686
 20
228.745785214456
 30
0.0
 42
0.4142135623730951
  0
VERTEX
  8
ITEM_50
 10
101.1704770916686
 20
229.745785214456
 30
0.0
  0
VERTEX
  8
ITEM_50
 10
101.1704770916685
 20
231.7939307627952
 30
0.0
 42
0.4142135623730951
  0
VERTEX
  8
ITEM_50
 10
99.67047709166858
 20
233.2939307627952
 30
0.0
  0
VERTEX
  8
ITEM_50
 10
89.17233154332298
 20
233.2939307627952
 30
0.0
 42
0.414213562373093
  0
VERTEX
  8
ITEM_50
 10
85.17233154332298
 20
229.2939307627952
 30
0.0
  0
VERTEX
  8
ITEM_50
 10
85.17233154332292
 20
218.795785214469
 30
0.0
 42
0.4142135623730951
  0
VERTEX
  8
ITEM_50
 10
86.67233154332292
 20
217.295785214469
 30
0.0
  0
VERTEX
  8
ITEM_50
 10
88.72047709166196
 20
217.295785214469
 30
0.0
 42
0.4142135623730951
  0
VERTEX
  8
ITEM_50
 10
89.72047709166196
 20
218.295785214469
 30
0.0
  0
VERTEX
  8
ITEM_50
 10
89.72047709166196
 20
222.2116726258557
 30
0.0
 42
-0.6150572283701308
  0
VERTEX
  8
ITEM_50
 10
91.44737122111504
 20
223.0844516003474
 30
0.0
 42
-0.0732359131709831
  0
VERTEX
  8
ITEM_50
 10
96.62047709166199
 20
217.9557852144691
 30
0.0
 42
-0.1622776601683797
  0
VERTEX
  8
ITEM_50
 10
97.42047709166195
 20
215.555785214469
 30
0.0
  0
VERTEX
  8
ITEM_50
 10
97.42047709166195
 20
211.035785214469
 30
0.0
 42
-0.1622776601683796
  0
VERTEX
  8
ITEM_50
 10
96.62047709166195
 20
208.635785214469
 30
0.0
 42
-0.0732359131709833
  0
VERTEX
  8
ITEM_50
 10
91.44737122111506
 20
203.5071188285908
 30
0.0
 42
-0.6150572283701256
  0
VERTEX
  8
ITEM_50
 10
89.72047709166194
 20
204.3798978030825
 30
0.0
  0
VERTEX
  8
ITEM_50
 10
89.72047709166194
 20
208.2957852144689
 30
0.0
 42
0.4142135623730834
  0
VERTEX
  8
ITEM_50
 10
88.72047709166199
 20
209.2957852144689
 30
0.0
  0
VERTEX
  8
ITEM_50
 10
86.67233154332294
 20
209.295785214469
 30
0.0
 42
0.4142135623731005
  0
VERTEX
  8
ITEM_50
 10
85.17233154332291
 20
207.795785214469
 30
0.0
  0
VERTEX
  8
ITEM_50
 10
85.17233154332282
 20
178.7957852144722
 30
0.0
 42
0.4142135623730924
  0
VERTEX
  8
ITEM_50
 10
86.67233154332281
 20
177.2957852144722
 30
0.0
  0
VERTEX
  8
ITEM_50
 10
88.72047709166191
 20
177.2957852144721
 30
0.0
 42
0.414213562373106
  0
VERTEX
  8
ITEM_50
 10
89.72047709166196
 20
178.2957852144721
 30
0.0
  0
VERTEX
  8
ITEM_50
 10
89.72047709166196
 20
182.2116726258589
 30
0.0
 42
-0.6150572283701308
  0
VERTEX
  8
ITEM_50
 10
91.44737122111504
 20
183.0844516003506
 30
0.0
 42
-0.0732359131709831
  0
VERTEX
  8
ITEM_50
 10
96.62047709166199
 20
177.9557852144722
 30
0.0
 42
-0.1622776601683797
  0
VERTEX
  8
ITEM_50
 10
97.42047709166195
 20
175.5557852144721
 30
0.0
  0
VERTEX
  8
ITEM_50
 10
97.42047709166195
 20
171.0357852144722
 30
0.0
 42
-0.1622776601683796
  0
VERTEX
  8
ITEM_50
 10
96.62047709166195
 20
168.6357852144722
 30
0.0
 42
-0.0732359131709833
  0
VERTEX
  8
ITEM_50
 10
91.44737122111506
 20
163.5071188285939
 30
0.0
 42
-0.6150572283701256
  0
VERTEX
  8
ITEM_50
 10
89.72047709166194
 20
164.3798978030856
 30
0.0
  0
VERTEX
  8
ITEM_50
 10
89.72047709166194
 20
168.2957852144722
 30
0.0
 42
0.4142135623730896
  0
VERTEX
  8
ITEM_50
 10
88.72047709166196
 20
169.2957852144722
 30
0.0
  0
VERTEX
  8
ITEM_50
 10
86.67233154332282
 20
169.2957852144722
 30
0.0
 42
0.4142135623730978
  0
VERTEX
  8
ITEM_50
 10
85.17233154332281
 20
167.7957852144722
 30
0.0
  0
VERTEX
  8
ITEM_50
 10
85.17233154332278
 20
157.2976396661231
 30
0.0
 42
0.4142135623730951
  0
VERTEX
  8
ITEM_50
 10
89.17233154332278
 20
153.2976396661231
 30
0.0
  0
VERTEX
  8
ITEM_50
 10
99.6704770916686
 20
153.2976396661231
 30
0.0
 42
0.4142135623730951
  0
VERTEX
  8
ITEM_50
 10
101.1704770916686
 20
154.7976396661231
 30
0.0
  0
VERTEX
  8
ITEM_50
 10
101.1704770916686
 20
156.8457852144624
 30
0.0
 42
0.4142135623730951
  0
VERTEX
  8
ITEM_50
 10
100.1704770916686
 20
157.8457852144624
 30
0.0
  0
VERTEX
  8
ITEM_50
 10
96.25458968028203
 20
157.8457852144624
 30
0.0
 42
-0.6150572283701308
  0
VERTEX
  8
ITEM_50
 10
95.38181070579034
 20
159.5726793439154
 30
0.0
 42
-0.0732359131709834
  0
VERTEX
  8
ITEM_50
 10
100.5104770916687
 20
164.7457852144623
 30
0.0
 42
-0.1622776601683796
  0
VERTEX
  8
ITEM_50
 10
102.9104770916686
 20
165.5457852144623
 30
0.0
  0
VERTEX
  8
ITEM_50
 10
107.4304770916685
 20
165.5457852144623
 30
0.0
 42
-0.1622776601683799
  0
VERTEX
  8
ITEM_50
 10
109.8304770916685
 20
164.7457852144623
 30
0.0
 42
-0.0732359131709831
  0
VERTEX
  8
ITEM_50
 10
114.959143477547
 20
159.5726793439154
 30
0.0
 42
-0.6150572283701333
  0
VERTEX
  8
ITEM_50
 10
114.0863645030553
 20
157.8457852144623
 30
0.0
  0
VERTEX
  8
ITEM_50
 10
110.1704770916686
 20
157.8457852144624
 30
0.0
 42
0.4142135623731028
  0
VERTEX
  8
ITEM_50
 10
109.1704770916686
 20
156.8457852144624
 30
0.0
  0
VERTEX
  8
ITEM_50
 10
109.1704770916686
 20
154.7976396661231
 30
0.0
 42
0.4142135623730951
  0
VERTEX
  8
ITEM_50
 10
110.6704770916686
 20
153.2976396661231
 30
0.0
  0
VERTEX
  8
ITEM_50
 10
139.6704770916654
 20
153.2976396661231
 30
0.0
 42
0.4142135623730951
  0
VERTEX
  8
ITEM_50
 10
141.1704770916654
 20
154.7976396661231
 30
0.0
  0
VERTEX
  8
ITEM_50
 10
141.1704770916654
 20
156.8457852144624
 30
0.0
 42
0.4142135623730984
  0
VERTEX
  8
ITEM_50
 10
140.1704770916654
 20
157.8457852144624
 30
0.0
  0
VERTEX
  8
ITEM_50
 10
136.2545896802788
 20
157.8457852144624
 30
0.0
 42
-0.6150572283701237
  0
VERTEX
  8
ITEM_50
 10
135.3818107057871
 20
159.5726793439154
 30
0.0
 42
-0.0732359131709831
  0
VERTEX
  8
ITEM_50
 10
140.5104770916655
 20
164.7457852144623
 30
0.0
 42
-0.1622776601683793
  0
VERTEX
  8
ITEM_50
 10
142.9104770916654
 20
165.5457852144623
 30
0.0
  0
VERTEX
  8
ITEM_50
 10
147.4304770916654
 20
165.5457852144623
 30
0.0
 42
-0.1622776601683801
  0
VERTEX
  8
ITEM_50
 10
149.8304770916654
 20
164.7457852144623
 30
0.0
 42
-0.0732359131709831
  0
VERTEX
  8
ITEM_50
 10
154.9591434775439
 20
159.5726793439154
 30
0.0
 42
-0.6150572283701307
  0
VERTEX
  8
ITEM_50
 10
154.0863645030522
 20
157.8457852144623
 30
0.0
  0
VERTEX
  8
ITEM_50
 10
150.1704770916653
 20
157.8457852144623
 30
0.0
 42
0.4142135623731022
  0
VERTEX
  8
ITEM_50
 10
149.1704770916653
 20
156.8457852144623
 30
0.0
  0
VERTEX
  8
ITEM_50
 10
149.1704770916654
 20
154.7976396661231
 30
0.0
 42
0.4142135623730895
  0
VERTEX
  8
ITEM_50
 10
150.6704770916654
 20
153.2976396661231
 30
0.0
  0
VERTEX
  8
ITEM_50
 10
179.6704770916621
 20
153.297639666123
 30
0.0
 42
0.4142135623730951
  0
VERTEX
  8
ITEM_50
 10
181.1704770916621
 20
154.797639666123
 30
0.0
  0
VERTEX
  8
ITEM_50
 10
181.1704770916621
 20
156.8457852144623
 30
0.0
 42
0.4142135623731005
  0
VERTEX
  8
ITEM_50
 10
180.1704770916621
 20
157.8457852144624
 30
0.0
  0
VERTEX
  8
ITEM_50
 10
176.2545896802757
 20
157.8457852144624
 30
0.0
 42
-0.6150572283701288
  0
VERTEX
  8
ITEM_50
 10
175.3818107057841
 20
159.5726793439154
 30
0.0
 42
-0.0732359131709827
  0
VERTEX
  8
ITEM_50
 10
180.5104770916624
 20
164.7457852144623
 30
0.0
 42
-0.1622776601683793
  0
VERTEX
  8
ITEM_50
 10
182.9104770916621
 20
165.5457852144623
 30
0.0
  0
VERTEX
  8
ITEM_50
 10
187.4304770916621
 20
165.5457852144623
 30
0.0
 42
-0.1622776601683801
  0
VERTEX
  8
ITEM_50
 10
189.8304770916621
 20
164.7457852144623
 30
0.0
 42
-0.0732359131709829
  0
VERTEX
  8
ITEM_50
 10
194.9591434775406
 20
159.5726793439154
 30
0.0
 42
-0.6150572283701256
  0
VERTEX
  8
ITEM_50
 10
194.086364503049
 20
157.8457852144623
 30
0.0
  0
VERTEX
  8
ITEM_50
 10
190.1704770916622
 20
157.8457852144623
 30
0.0
 42
0.4142135623731022
  0
VERTEX
  8
ITEM_50
 10
189.1704770916622
 20
156.8457852144623
 30
0.0
  0
VERTEX
  8
ITEM_50
 10
189.1704770916622
 20
154.7976396661231
 30
0.0
 42
0.4142135623730951
  0
VERTEX
  8
ITEM_50
 10
190.6704770916622
 20
153.2976396661231
 30
0.0
  0
VERTEX
  8
ITEM_50
 10
201.1686226399969
 20
153.297639666123
 30
0.0
 42
0.4142135623730971
  0
VERTEX
  8
ITEM_50
 10
205.1686226399969
 20
157.2976396661231
 30
0.0
  0
VERTEX
  8
ITEM_50
 10
205.1686226399968
 20
167.7957852144689
 30
0.0
 42
0.4142135623730951
  0
VERTEX
  8
ITEM_50
 10
203.6686226399968
 20
169.2957852144689
 30
0.0
  0
VERTEX
  8
ITEM_50
 10
201.6204770916397
 20
169.2957852144689
 30
0.0
 42
0.4142135623730896
  0
VERTEX
  8
ITEM_50
 10
200.6204770916398
 20
168.2957852144689
 30
0.0
  0
VERTEX
  8
ITEM_50
 10
200.6204770916398
 20
164.3798978030825
 30
0.0
 42
-0.6150572283701288
  0
VERTEX
  8
ITEM_50
 10
198.8935829621867
 20
163.5071188285908
 30
0.0
 42
-0.0732359131709829
  0
VERTEX
  8
ITEM_50
 10
193.7204770916398
 20
168.6357852144691
 30
0.0
 42
-0.1622776601683804
  0
VERTEX
  8
ITEM_50
 10
192.9204770916398
 20
171.0357852144689
 30
0.0
  0
VERTEX
  8
ITEM_50
 10
192.9204770916398
 20
175.5557852144689
 30
0.0
 42
-0.16227766016838
  0
VERTEX
  8
ITEM_50
 10
193.7204770916399
 20
177.9557852144689
 30
0.0
 42
-0.0732359131709833
  0
VERTEX
  8
ITEM_50
 10
198.8935829621867
 20
183.0844516003474
 30
0.0
 42
-0.6150572283701343
  0
VERTEX
  8
ITEM_50
 10
200.6204770916399
 20
182.2116726258557
 30
0.0
  0
VERTEX
  8
ITEM_50
 10
200.6204770916398
 20
178.295785214469
 30
0.0
 42
0.4142135623730946
  0
VERTEX
  8
ITEM_50
 10
201.6204770916397
 20
177.295785214469
 30
0.0
  0
VERTEX
  8
ITEM_50
 10
203.6686226399968
 20
177.295785214469
 30
0.0
 42
0.4142135623730951
  0
VERTEX
  8
ITEM_50
 10
205.1686226399968
 20
178.795785214469
 30
0.0
  0
VERTEX
  8
ITEM_50
 10
205.1686226399968
 20
207.7957852144689
 30
0.0
 42
0.4142135623730951
  0
VERTEX
  8
ITEM_50
 10
203.6686226399968
 20
209.2957852144689
 30
0.0
  0
VERTEX
  8
ITEM_50
 10
201.6204770916492
 20
209.2957852144689
 30
0.0
 42
0.4142135623730951
  0
VERTEX
  8
ITEM_50
 10
200.6204770916492
 20
208.2957852144689
 30
0.0
  0
VERTEX
  8
ITEM_50
 10
200.6204770916492
 20
204.3798978030825
 30
0.0
 42
-0.6150572283701288
  0
VERTEX
  8
ITEM_50
 10
198.8935829621962
 20
203.5071188285908
 30
0.0
 42
-0.0732359131709829
  0
VERTEX
  8
ITEM_50
 10
193.7204770916492
 20
208.6357852144691
 30
0.0
 42
-0.1622776601683804
  0
VERTEX
  8
ITEM_50
 10
192.9204770916493
 20
211.0357852144689
 30
0.0
  0
VERTEX
  8
ITEM_50
 10
192.9204770916493
 20
215.5557852144689
 30
0.0
 42
-0.16227766016838
  0
VERTEX
  8
ITEM_50
 10
193.7204770916493
 20
217.9557852144689
 30
0.0
 42
-0.0732359131709833
  0
VERTEX
  8
ITEM_50
 10
198.8935829621962
 20
223.0844516003474
 30
0.0
 42
-0.6150572283701343
  0
VERTEX
  8
ITEM_50
 10
200.6204770916493
 20
222.2116726258557
 30
0.0
  0
VERTEX
  8
ITEM_50
 10
200.6204770916492
 20
218.295785214469
 30
0.0
 42
0.4142135623730912
  0
VERTEX
  8
ITEM_50
 10
201.6204770916492
 20
217.295785214469
 30
0.0
  0
VERTEX
  8
ITEM_50
 10
203.6686226399968
 20
217.295785214469
 30
0.0
 42
0.4142135623730951
  0
VERTEX
  8
ITEM_50
 10
205.1686226399968
 20
218.795785214469
 30
0.0
  0
VERTEX
  8
ITEM_50
 10
205.1686226399967
 20
229.2939307627952
 30
0.0
 42
0.4142135623730909
  0
VERTEX
  8
ITEM_50
 10
201.1686226399967
 20
233.2939307627952
 30
0.0
  0
VERTEX
  8
ITEM_50
 10
190.6704770916622
 20
233.2939307627952
 30
0.0
 42
0.4142135623730951
  0
VERTEX
  8
ITEM_50
 10
189.1704770916622
 20
231.7939307627952
 30
0.0
  0
VERTEX
  8
ITEM_50
 10
189.1704770916623
 20
229.745785214456
 30
0.0
 42
0.4142135623730884
  0
VERTEX
  8
ITEM_50
 10
190.1704770916623
 20
228.745785214456
 30
0.0
  0
VERTEX
  8
ITEM_50
 10
194.0863645030491
 20
228.745785214456
 30
0.0
 42
-0.6150572283701271
  0
VERTEX
  8
ITEM_50
 10
194.9591434775407
 20
227.018891085003
 30
0.0
 42
-0.0732359131709835
  0
VERTEX
  8
ITEM_50
 10
189.8304770916622
 20
221.8457852144561
 30
0.0
 42
-0.16227766016838
  0
VERTEX
  8
ITEM_50
 10
187.4304770916621
 20
221.045785214456
 30
0.0
  0
VERTEX
  8
ITEM_50
 10
182.9104770916623
 20
221.045785214456
 30
0.0
 42
-0.1622776601683793
  0
VERTEX
  8
ITEM_50
 10
180.5104770916624
 20
221.845785214456
 30
0.0
 42
-0.073235913170984
  0
VERTEX
  8
ITEM_50
 10
175.3818107057838
 20
227.0188910850029
 30
0.0
 42
-0.6150572283701379
  0
VERTEX
  8
ITEM_50
 10
176.2545896802755
 20
228.745785214456
 30
0.0
  0
VERTEX
  8
ITEM_50
 10
180.1704770916622
 20
228.7457852144559
 30
0.0
 42
0.4142135623730896
  0
VERTEX
  8
ITEM_50
 10
181.1704770916622
 20
229.7457852144559
 30
0.0
  0
VERTEX
  8
ITEM_50
 10
181.1704770916622
 20
231.7939307627952
 30
0.0
 42
0.4142135623731005
  0
VERTEX
  8
ITEM_50
 10
179.6704770916622
 20
233.2939307627952
 30
0.0
  0
VERTEX
  8
ITEM_50
 10
150.6704770916654
 20
233.2939307627952
 30
0.0
 42
0.4142135623731006
  0
VERTEX
  8
ITEM_50
 10
149.1704770916654
 20
231.7939307627952
 30
0.0
  0
VERTEX
  8
ITEM_50
 10
149.1704770916654
 20
229.745785214456
 30
0.0
 42
0.4142135623731057
  0
VERTEX
  8
ITEM_50
 10
150.1704770916654
 20
228.745785214456
 30
0.0
  0
VERTEX
  8
ITEM_50
 10
154.0863645030522
 20
228.745785214456
 30
0.0
 42
-0.6150572283701361
  0
VERTEX
  8
ITEM_50
 10
154.9591434775439
 20
227.0188910850029
 30
0.0
 42
-0.073235913170983
  0
VERTEX
  8
ITEM_50
 10
149.8304770916654
 20
221.8457852144561
 30
0.0
 42
-0.16227766016838
  0
VERTEX
  8
ITEM_50
 10
147.4304770916654
 20
221.045785214456
 30
0.0
  0
VERTEX
  8
ITEM_50
 10
142.9104770916654
 20
221.045785214456
 30
0.0
 42
-0.1622776601683793
  0
VERTEX
  8
ITEM_50
 10
140.5104770916655
 20
221.845785214456
 30
0.0
 42
-0.0732359131709835
  0
VERTEX
  8
ITEM_50
 10
135.3818107057871
 20
227.0188910850029
 30
0.0
 42
-0.6150572283701379
  0
VERTEX
  8
ITEM_50
 10
136.2545896802788
 20
228.745785214456
 30
0.0
  0
VERTEX
  8
ITEM_50
 10
140.1704770916653
 20
228.7457852144559
 30
0.0
 42
0.4142135623730867
  0
VERTEX
  8
ITEM_50
 10
141.1704770916653
 20
229.7457852144559
 30
0.0
  0
VERTEX
  8
ITEM_50
 10
141.1704770916654
 20
231.7939307627952
 30
0.0
 42
0.4142135623730951
  0
VERTEX
  8
ITEM_50
 10
139.6704770916654
 20
233.2939307627952
 30
0.0
  0
VERTEX
  8
ITEM_50
 10
110.6704770916686
 20
233.2939307627952
 30
0.0
 42
0.4142135623730951
  0
VERTEX
  8
ITEM_50
 10
109.1704770916686
 20
231.7939307627952
 30
0.0
  0
VERTEX
  8
ITEM_50
 10
109.1704770916685
 20
229.745785214456
 30
0.0
 42
0.4142135623731012
  0
VERTEX
  8
ITEM_50
 10
110.1704770916686
 20
228.745785214456
 30
0.0
  0
SEQEND
  8
ITEM_50
  0
POLYLINE
  8
ITEM_50
 66
     1
 10
0.0
 20
0.0
 30
0.0
 70
     1
  0
VERTEX
  8
ITEM_50
 10
152.9204770916777
 20
209.5603721142469
 30
0.0
 42
-0.2006562601223732
  0
VERTEX
  8
ITEM_50
 10
152.6228248450437
 20
208.8485381214215
 30
0.0
  0
VERTEX
  8
ITEM_50
 10
149.5675215151574
 20
205.8339512216305
 30
0.0
 42
-0.1971696376630576
  0
VERTEX
  8
ITEM_50
 10
148.8651737617914
 20
205.5457852144559
 30
0.0
  0
VERTEX
  8
ITEM_50
 10
141.9741840965563
 20
205.5457852144558
 30
0.0
 42
0.1989123652097136
  0
VERTEX
  8
ITEM_50
 10
140.9135239336324
 20
205.1064453950916
 30
0.0
  0
VERTEX
  8
ITEM_50
 10
130.1635239409958
 20
194.3564455839285
 30
0.0
 42
0.4142135623730936
  0
VERTEX
  8
ITEM_50
 10
130.163523923284
 20
192.2351252403688
 30
0.0
  0
VERTEX
  8
ITEM_50
 10
140.9135239306408
 20
181.4851250515385
 30
0.0
 42
0.1989123695496037
  0
VERTEX
  8
ITEM_50
 10
141.9741841112765
 20
181.0457852144624
 30
0.0
  0
VERTEX
  8
ITEM_50
 10
149.2719928496373
 20
181.0457852144624
 30
0.0
  0
VERTEX
  8
ITEM_50
 10
152.6229435809215
 20
177.7383874818633
 30
0.0
 42
-0.2006128772315691
  0
VERTEX
  8
ITEM_50
 10
152.9204770916777
 20
177.0266706621313
 30
0.0
  0
VERTEX
  8
ITEM_50
 10
152.9204770916778
 20
170.0994922267246
 30
0.0
 42
0.1989123673796566
  0
VERTEX
  8
ITEM_50
 10
153.3598169198979
 20
169.0388320549448
 30
0.0
  0
VERTEX
  8
ITEM_50
 10
159.513622842211
 20
162.8850261326317
 30
0.0
 42
0.4142135623730951
  0
VERTEX
  8
ITEM_50
 10
170.8273313411958
 20
162.8850261326317
 30
0.0
  0
VERTEX
  8
ITEM_50
 10
176.9811372634417
 20
169.0388320548775
 30
0.0
 42
0.198912367379661
  0
VERTEX
  8
ITEM_50
 10
177.4204770916619
 20
170.0994922266574
 30
0.0
  0
VERTEX
  8
ITEM_50
 10
177.4204770916619
 20
176.7046996238365
 30
0.0
 42
-0.2006562601223739
  0
VERTEX
  8
ITEM_50
 10
177.7181293382959
 20
177.4165336166618
 30
0.0
  0
VERTEX
  8
ITEM_50
 10
181.1043412040684
 20
180.7576192072878
 30
0.0
 42
-0.1971696376630609
  0
VERTEX
  8
ITEM_50
 10
181.8066889574344
 20
181.0457852144624
 30
0.0
  0
VERTEX
  8
ITEM_50
 10
188.3667700858205
 20
181.0457852144624
 30
0.0
 42
0.1989123655004336
  0
VERTEX
  8
ITEM_50
 10
189.4274302499309
 20
181.4851250350131
 30
0.0
  0
VERTEX
  8
ITEM_50
 10
195.5812361735509
 20
187.6389308696391
 30
0.0
 42
0.4142135623730951
  0
VERTEX
  8
ITEM_50
 10
195.5812361735509
 20
198.9526393686239
 30
0.0
  0
VERTEX
  8
ITEM_50
 10
189.427430252596
 20
205.1064453785728
 30
0.0
 42
0.1989123692588838
  0
VERTEX
  8
ITEM_50
 10
188.3667700731467
 20
205.5457852144624
 30
0.0
  0
VERTEX
  8
ITEM_50
 10
181.3915861142977
 20
205.5457852144624
 30
0.0
  0
VERTEX
  8
ITEM_50
 10
177.7180106024181
 20
209.1716145067558
 30
0.0
 42
-0.2006128772315744
  0
VERTEX
  8
ITEM_50
 10
177.4204770916619
 20
209.8833313264877
 30
0.0
  0
VERTEX
  8
ITEM_50
 10
177.4204770916619
 20
216.4920782023007
 30
0.0
 42
0.1989123673796545
  0
VERTEX
  8
ITEM_50
 10
176.9811372634417
 20
217.5527383740806
 30
0.0
  0
VERTEX
  8
ITEM_50
 10
170.8273313411923
 20
223.7065442963301
 30
0.0
 42
0.4142135623730951
  0
VERTEX
  8
ITEM_50
 10
159.5136228422075
 20
223.7065442963301
 30
0.0
  0
VERTEX
  8
ITEM_50
 10
153.3598169198979
 20
217.5527383740206
 30
0.0
 42
0.1989123673796609
  0
VERTEX
  8
ITEM_50
 10
152.9204770916777
 20
216.4920782022407
 30
0.0
  0
SEQEND
  8
ITEM_50
  0
POLYLINE
  8
0
 66
     1
 10
0.0
 20
0.0
 30
0.0
 70
     1
  0
VERTEX
  8
0
 10
126.2311372763413
 20
158.2888320549016
 30
0.0
 42
-0.4142135623730948
  0
VERTEX
  8
0
 10
124.1098169327816
 20
158.2888320549015
 30
0.0
  0
VERTEX
  8
0
 10
113.3598169198722
 20
169.0388320549016
 30
0.0
 42
-0.1989123673796582
  0
VERTEX
  8
0
 10
112.920477091652
 20
170.0994922266814
 30
0.0
  0
VERTEX
  8
0
 10
112.9204770916519
 20
176.4920782022371
 30
0.0
 42
-0.1989123673796581
  0
VERTEX
  8
0
 10
113.3598169198721
 20
177.5527383740168
 30
0.0
  0
VERTEX
  8
0
 10
124.1098169198721
 20
188.3027383740168
 30
0.0
 42
-0.4142135623730943
  0
VERTEX
  8
0
 10
126.2311372634317
 20
188.3027383740168
 30
0.0
  0
VERTEX
  8
0
 10
136.9811372634318
 20
177.5527383740168
 30
0.0
 42
-0.1989123673796596
  0
VERTEX
  8
0
 10
137.420477091652
 20
176.4920782022371
 30
0.0
  0
VERTEX
  8
0
 10
137.4204770916519
 20
170.0994922266813
 30
0.0
 42
-0.1989123673796568
  0
VERTEX
  8
0
 10
136.9811372634317
 20
169.0388320549014
 30
0.0
  0
SEQEND
  8
0
  0
POLYLINE
  8
ITEM_50
 66
     1
 10
0.0
 20
0.0
 30
0.0
 70
     1
  0
VERTEX
  8
ITEM_50
 10
126.2311372634411
 20
228.3027383740168
 30
0.0
 42
0.4142135623730943
  0
VERTEX
  8
ITEM_50
 10
124.1098169198815
 20
228.3027383740168
 30
0.0
  0
VERTEX
  8
ITEM_50
 10
113.3598169198815
 20
217.5527383740169
 30
0.0
 42
0.1989123673796581
  0
VERTEX
  8
ITEM_50
 10
112.9204770916613
 20
216.4920782022371
 30
0.0
  0
VERTEX
  8
ITEM_50
 10
112.9204770916614
 20
210.0994922266814
 30
0.0
 42
0.1989123673796582
  0
VERTEX
  8
ITEM_50
 10
113.3598169198816
 20
209.0388320549015
 30
0.0
  0
VERTEX
  8
ITEM_50
 10
124.109816932791
 20
198.2888320549015
 30
0.0
 42
0.4142135623730948
  0
VERTEX
  8
ITEM_50
 10
126.2311372763507
 20
198.2888320549016
 30
0.0
  0
VERTEX
  8
ITEM_50
 10
136.9811372634412
 20
209.0388320549015
 30
0.0
 42
0.1989123673796568
  0
VERTEX
  8
ITEM_50
 10
137.4204770916613
 20
210.0994922266813
 30
0.0
  0
VERTEX
  8
ITEM_50
 10
137.4204770916614
 20
216.4920782022371
 30
0.0
 42
0.1989123673796596
  0
VERTEX
  8
ITEM_50
 10
136.9811372634412
 20
217.5527383740169
 30
0.0
  0
SEQEND
  8
ITEM_50
  0
POLYLINE
  8
ITEM_50
 66
     1
 10
0.0
 20
0.0
 30
0.0
 70
     1
  0
VERTEX
  8
ITEM_50
 10
108.3667700794366
 20
181.0457852144524
 30
0.0
 42
0.1989123673796582
  0
VERTEX
  8
ITEM_50
 10
109.4274302512165
 20
181.4851250426726
 30
0.0
  0
VERTEX
  8
ITEM_50
 10
120.1774302512164
 20
192.2351250555821
 30
0.0
 42
0.4142135623730945
  0
VERTEX
  8
ITEM_50
 10
120.1774302512165
 20
194.3564453991417
 30
0.0
  0
VERTEX
  8
ITEM_50
 10
109.4274302512165
 20
205.1064453862322
 30
0.0
 42
0.1989123673796569
  0
VERTEX
  8
ITEM_50
 10
108.3667700794367
 20
205.5457852144523
 30
0.0
  0
VERTEX
  8
ITEM_50
 10
101.9741841038809
 20
205.5457852144524
 30
0.0
 42
0.1989123673796596
  0
VERTEX
  8
ITEM_50
 10
100.9135239321011
 20
205.1064453862322
 30
0.0
  0
VERTEX
  8
ITEM_50
 10
90.16352393210121
 20
194.3564453862322
 30
0.0
 42
0.4142135623730943
  0
VERTEX
  8
ITEM_50
 10
90.16352393210128
 20
192.2351250426725
 30
0.0
  0
VERTEX
  8
ITEM_50
 10
100.9135239321012
 20
181.4851250426725
 30
0.0
 42
0.1989123673796582
  0
VERTEX
  8
ITEM_50
 10
101.9741841038809
 20
181.0457852144523
 30
0.0
  0
SEQEND
  8
ITEM_50
  0
POINT
  8
ITEM_HILFE
 10
85.17233154332278
 20
153.2976396661231
 30
0.0
  0
POINT
  8
ITEM_HILFE
 10
205.1686226399968
 20
153.297639666123
 30
0.0
  0
POINT
  8
ITEM_HILFE
 10
205.1686226399967
 20
233.2939307627952
 30
0.0
  0
POINT
  8
ITEM_HILFE
 10
85.17233154332296
 20
233.2939307627952
 30
0.0
  0
POINT
  8
ITEM_HILFE
 10
200.6204770916688
 20
173.2957852144722
 30
0.0
  0
POINT
  8
ITEM_HILFE
 10
200.6204770916688
 20
213.295785214469
 30
0.0
  0
POINT
  8
ITEM_HILFE
 10
89.72047709166196
 20
173.2957852144722
 30
0.0
  0
POINT
  8
ITEM_HILFE
 10
89.72047709166196
 20
213.295785214469
 30
0.0
  0
POINT
  8
ITEM_HILFE
 10
185.1704770916621
 20
157.8457852144852
 30
0.0
  0
POINT
  8
ITEM_HILFE
 10
145.1704770916654
 20
157.8457852144852
 30
0.0
  0
POINT
  8
ITEM_HILFE
 10
105.1704770916686
 20
157.8457852144852
 30
0.0
  0
POINT
  8
ITEM_HILFE
 10
145.1704770916654
 20
228.745785214456
 30
0.0
  0
POINT
  8
ITEM_HILFE
 10
185.1704770916621
 20
228.745785214456
 30
0.0
  0
POINT
  8
ITEM_HILFE
 10
105.1704770916686
 20
228.745785214456
 30
0.0
  0
POINT
  8
ITEM_HILFE
 10
85.17047709165569
 20
213.2957852144592
 30
0.0
  0
POINT
  8
ITEM_HILFE
 10
185.1704770916524
 20
153.2957852144623
 30
0.0
  0
POINT
  8
ITEM_HILFE
 10
205.1704770916493
 20
213.2957852144591
 30
0.0
  0
POINT
  8
ITEM_HILFE
 10
185.1704770916524
 20
233.2957852144623
 30
0.0
  0
POINT
  8
ITEM_HILFE
 10
145.1704770916556
 20
233.2957852144623
 30
0.0
  0
POINT
  8
ITEM_HILFE
 10
145.1704770916556
 20
153.2957852144623
 30
0.0
  0
POINT
  8
ITEM_HILFE
 10
105.1704770916588
 20
153.2957852144623
 30
0.0
  0
POINT
  8
ITEM_HILFE
 10
105.1704770916588
 20
233.2957852144623
 30
0.0
  0
CIRCLE
  8
ITEM_50
 10
185.1704770916524
 20
213.2957852144591
 30
0.0
 40
3.399999999999999
  0
CIRCLE
  8
ITEM_50
 10
145.1704770916556
 20
213.2957852144592
 30
0.0
 40
3.399999999999999
  0
CIRCLE
  8
ITEM_50
 10
105.1704770916588
 20
213.2957852144592
 30
0.0
 40
3.399999999999999
  0
CIRCLE
  8
ITEM_50
 10
105.1704770916588
 20
173.2957852144624
 30
0.0
 40
3.399999999999999
  0
CIRCLE
  8
ITEM_50
 10
145.1704770916556
 20
173.2957852144624
 30
0.0
 40
3.399999999999999
  0
CIRCLE
  8
ITEM_50
 10
185.1704770916524
 20
173.2957852144623
 30
0.0
 40
3.399999999999999
  0
POINT
  8
ITEM_HILFE
 10
85.17047709165569
 20
173.2957852144624
 30
0.0
  0
POINT
  8
ITEM_HILFE
 10
205.1704770916398
 20
173.2957852144591
 30
0.0
  0
POINT
  8
ITEM_HILFE
 10
125.1704770916682
 20
193.2957852144592
 30
0.0
  0
ENDSEC
  0
EOF
